ISO-10303-21;
HEADER;
/* Generated by software containing ST-Developer
 * from STEP Tools, Inc. (www.steptools.com) 
 */

FILE_DESCRIPTION(
/* description */ (''),
/* implementation_level */ '2;1');

FILE_NAME(
/* name */ 
'C:\\Users\\Kevin\\Desktop\\Fusion360Export\\Projects\\3D Printer\\Rub
ber Bumper Foot_v2.step',
/* time_stamp */ '2020-09-23T17:57:59-07:00',
/* author */ (''),
/* organization */ (''),
/* preprocessor_version */ 'ST-DEVELOPER v18.1',
/* originating_system */ 'Autodesk Translation Framework v9.3.0.1241',
/* authorisation */ '');

FILE_SCHEMA (('AUTOMOTIVE_DESIGN { 1 0 10303 214 3 1 1 }'));
ENDSEC;

DATA;
#10=MECHANICAL_DESIGN_GEOMETRIC_PRESENTATION_REPRESENTATION('',(#13),#346);
#11=SHAPE_REPRESENTATION_RELATIONSHIP('SRR','None',#353,#12);
#12=ADVANCED_BREP_SHAPE_REPRESENTATION('',(#14),#345);
#13=STYLED_ITEM('',(#362),#14);
#14=MANIFOLD_SOLID_BREP('Body1',#192);
#15=FACE_BOUND('',#40,.T.);
#16=FACE_BOUND('',#47,.T.);
#17=PLANE('',#215);
#18=PLANE('',#224);
#19=PLANE('',#225);
#20=PLANE('',#226);
#21=PLANE('',#227);
#22=PLANE('',#228);
#23=CYLINDRICAL_SURFACE('',#209,14.);
#24=CYLINDRICAL_SURFACE('',#217,4.75);
#25=CYLINDRICAL_SURFACE('',#222,2.6);
#26=FACE_OUTER_BOUND('',#37,.T.);
#27=FACE_OUTER_BOUND('',#38,.T.);
#28=FACE_OUTER_BOUND('',#39,.T.);
#29=FACE_OUTER_BOUND('',#41,.T.);
#30=FACE_OUTER_BOUND('',#42,.T.);
#31=FACE_OUTER_BOUND('',#43,.T.);
#32=FACE_OUTER_BOUND('',#44,.T.);
#33=FACE_OUTER_BOUND('',#45,.T.);
#34=FACE_OUTER_BOUND('',#46,.T.);
#35=FACE_OUTER_BOUND('',#48,.T.);
#36=FACE_OUTER_BOUND('',#49,.T.);
#37=EDGE_LOOP('',(#129,#130,#131,#132));
#38=EDGE_LOOP('',(#133,#134,#135,#136,#137,#138,#139,#140,#141,#142,#143,
#144));
#39=EDGE_LOOP('',(#145));
#40=EDGE_LOOP('',(#146));
#41=EDGE_LOOP('',(#147,#148,#149,#150));
#42=EDGE_LOOP('',(#151,#152,#153,#154,#155));
#43=EDGE_LOOP('',(#156,#157,#158,#159,#160));
#44=EDGE_LOOP('',(#161,#162,#163,#164));
#45=EDGE_LOOP('',(#165,#166,#167,#168));
#46=EDGE_LOOP('',(#169,#170,#171,#172));
#47=EDGE_LOOP('',(#173));
#48=EDGE_LOOP('',(#174,#175));
#49=EDGE_LOOP('',(#176,#177,#178));
#50=LINE('',#295,#63);
#51=LINE('',#302,#64);
#52=LINE('',#306,#65);
#53=LINE('',#310,#66);
#54=LINE('',#314,#67);
#55=LINE('',#316,#68);
#56=LINE('',#322,#69);
#57=LINE('',#329,#70);
#58=LINE('',#333,#71);
#59=LINE('',#335,#72);
#60=LINE('',#336,#73);
#61=LINE('',#338,#74);
#62=LINE('',#339,#75);
#63=VECTOR('',#235,13.5);
#64=VECTOR('',#242,10.);
#65=VECTOR('',#245,10.);
#66=VECTOR('',#248,10.);
#67=VECTOR('',#251,10.);
#68=VECTOR('',#254,14.);
#69=VECTOR('',#261,4.75);
#70=VECTOR('',#270,3.6738715006927);
#71=VECTOR('',#275,2.6);
#72=VECTOR('',#278,10.);
#73=VECTOR('',#279,10.);
#74=VECTOR('',#282,10.);
#75=VECTOR('',#283,10.);
#76=CIRCLE('',#207,14.);
#77=CIRCLE('',#208,13.);
#78=CIRCLE('',#210,14.);
#79=CIRCLE('',#211,14.);
#80=CIRCLE('',#212,14.);
#81=CIRCLE('',#213,14.);
#82=CIRCLE('',#214,14.);
#83=CIRCLE('',#216,4.75);
#84=CIRCLE('',#218,4.75);
#85=CIRCLE('',#220,2.6);
#86=CIRCLE('',#221,2.6);
#87=CIRCLE('',#223,2.6);
#88=VERTEX_POINT('',#292);
#89=VERTEX_POINT('',#294);
#90=VERTEX_POINT('',#298);
#91=VERTEX_POINT('',#299);
#92=VERTEX_POINT('',#301);
#93=VERTEX_POINT('',#303);
#94=VERTEX_POINT('',#305);
#95=VERTEX_POINT('',#307);
#96=VERTEX_POINT('',#309);
#97=VERTEX_POINT('',#311);
#98=VERTEX_POINT('',#313);
#99=VERTEX_POINT('',#318);
#100=VERTEX_POINT('',#321);
#101=VERTEX_POINT('',#325);
#102=VERTEX_POINT('',#326);
#103=VERTEX_POINT('',#331);
#104=EDGE_CURVE('',#88,#88,#76,.T.);
#105=EDGE_CURVE('',#88,#89,#50,.T.);
#106=EDGE_CURVE('',#89,#89,#77,.T.);
#107=EDGE_CURVE('',#90,#91,#78,.T.);
#108=EDGE_CURVE('',#90,#92,#51,.T.);
#109=EDGE_CURVE('',#93,#92,#79,.T.);
#110=EDGE_CURVE('',#94,#93,#52,.T.);
#111=EDGE_CURVE('',#95,#94,#80,.T.);
#112=EDGE_CURVE('',#95,#96,#53,.T.);
#113=EDGE_CURVE('',#97,#96,#81,.T.);
#114=EDGE_CURVE('',#98,#97,#54,.T.);
#115=EDGE_CURVE('',#91,#98,#82,.T.);
#116=EDGE_CURVE('',#91,#88,#55,.T.);
#117=EDGE_CURVE('',#99,#99,#83,.T.);
#118=EDGE_CURVE('',#99,#100,#56,.T.);
#119=EDGE_CURVE('',#100,#100,#84,.T.);
#120=EDGE_CURVE('',#101,#102,#85,.T.);
#121=EDGE_CURVE('',#102,#101,#86,.T.);
#122=EDGE_CURVE('',#101,#100,#57,.T.);
#123=EDGE_CURVE('',#103,#103,#87,.T.);
#124=EDGE_CURVE('',#103,#102,#58,.T.);
#125=EDGE_CURVE('',#98,#90,#59,.T.);
#126=EDGE_CURVE('',#92,#97,#60,.T.);
#127=EDGE_CURVE('',#94,#95,#61,.T.);
#128=EDGE_CURVE('',#96,#93,#62,.T.);
#129=ORIENTED_EDGE('',*,*,#104,.T.);
#130=ORIENTED_EDGE('',*,*,#105,.T.);
#131=ORIENTED_EDGE('',*,*,#106,.T.);
#132=ORIENTED_EDGE('',*,*,#105,.F.);
#133=ORIENTED_EDGE('',*,*,#107,.F.);
#134=ORIENTED_EDGE('',*,*,#108,.T.);
#135=ORIENTED_EDGE('',*,*,#109,.F.);
#136=ORIENTED_EDGE('',*,*,#110,.F.);
#137=ORIENTED_EDGE('',*,*,#111,.F.);
#138=ORIENTED_EDGE('',*,*,#112,.T.);
#139=ORIENTED_EDGE('',*,*,#113,.F.);
#140=ORIENTED_EDGE('',*,*,#114,.F.);
#141=ORIENTED_EDGE('',*,*,#115,.F.);
#142=ORIENTED_EDGE('',*,*,#116,.T.);
#143=ORIENTED_EDGE('',*,*,#104,.F.);
#144=ORIENTED_EDGE('',*,*,#116,.F.);
#145=ORIENTED_EDGE('',*,*,#106,.F.);
#146=ORIENTED_EDGE('',*,*,#117,.T.);
#147=ORIENTED_EDGE('',*,*,#117,.F.);
#148=ORIENTED_EDGE('',*,*,#118,.T.);
#149=ORIENTED_EDGE('',*,*,#119,.F.);
#150=ORIENTED_EDGE('',*,*,#118,.F.);
#151=ORIENTED_EDGE('',*,*,#120,.T.);
#152=ORIENTED_EDGE('',*,*,#121,.T.);
#153=ORIENTED_EDGE('',*,*,#122,.T.);
#154=ORIENTED_EDGE('',*,*,#119,.T.);
#155=ORIENTED_EDGE('',*,*,#122,.F.);
#156=ORIENTED_EDGE('',*,*,#123,.F.);
#157=ORIENTED_EDGE('',*,*,#124,.T.);
#158=ORIENTED_EDGE('',*,*,#120,.F.);
#159=ORIENTED_EDGE('',*,*,#121,.F.);
#160=ORIENTED_EDGE('',*,*,#124,.F.);
#161=ORIENTED_EDGE('',*,*,#125,.F.);
#162=ORIENTED_EDGE('',*,*,#114,.T.);
#163=ORIENTED_EDGE('',*,*,#126,.F.);
#164=ORIENTED_EDGE('',*,*,#108,.F.);
#165=ORIENTED_EDGE('',*,*,#127,.F.);
#166=ORIENTED_EDGE('',*,*,#110,.T.);
#167=ORIENTED_EDGE('',*,*,#128,.F.);
#168=ORIENTED_EDGE('',*,*,#112,.F.);
#169=ORIENTED_EDGE('',*,*,#128,.T.);
#170=ORIENTED_EDGE('',*,*,#109,.T.);
#171=ORIENTED_EDGE('',*,*,#126,.T.);
#172=ORIENTED_EDGE('',*,*,#113,.T.);
#173=ORIENTED_EDGE('',*,*,#123,.T.);
#174=ORIENTED_EDGE('',*,*,#127,.T.);
#175=ORIENTED_EDGE('',*,*,#111,.T.);
#176=ORIENTED_EDGE('',*,*,#125,.T.);
#177=ORIENTED_EDGE('',*,*,#107,.T.);
#178=ORIENTED_EDGE('',*,*,#115,.T.);
#179=CONICAL_SURFACE('',#206,13.5,0.785398163397449);
#180=CONICAL_SURFACE('',#219,3.6738715006927,1.0471975511966);
#181=ADVANCED_FACE('',(#26),#179,.T.);
#182=ADVANCED_FACE('',(#27),#23,.T.);
#183=ADVANCED_FACE('',(#28,#15),#17,.F.);
#184=ADVANCED_FACE('',(#29),#24,.F.);
#185=ADVANCED_FACE('',(#30),#180,.F.);
#186=ADVANCED_FACE('',(#31),#25,.F.);
#187=ADVANCED_FACE('',(#32),#18,.T.);
#188=ADVANCED_FACE('',(#33),#19,.T.);
#189=ADVANCED_FACE('',(#34,#16),#20,.T.);
#190=ADVANCED_FACE('',(#35),#21,.T.);
#191=ADVANCED_FACE('',(#36),#22,.T.);
#192=CLOSED_SHELL('',(#181,#182,#183,#184,#185,#186,#187,#188,#189,#190,
#191));
#193=DERIVED_UNIT_ELEMENT(#195,1.);
#194=DERIVED_UNIT_ELEMENT(#348,3.);
#195=(
MASS_UNIT()
NAMED_UNIT(*)
SI_UNIT(.KILO.,.GRAM.)
);
#196=DERIVED_UNIT((#193,#194));
#197=MEASURE_REPRESENTATION_ITEM('density measure',
POSITIVE_RATIO_MEASURE(7850.),#196);
#198=PROPERTY_DEFINITION_REPRESENTATION(#203,#200);
#199=PROPERTY_DEFINITION_REPRESENTATION(#204,#201);
#200=REPRESENTATION('material name',(#202),#345);
#201=REPRESENTATION('density',(#197),#345);
#202=DESCRIPTIVE_REPRESENTATION_ITEM('Steel','Steel');
#203=PROPERTY_DEFINITION('material property','material name',#355);
#204=PROPERTY_DEFINITION('material property','density of part',#355);
#205=AXIS2_PLACEMENT_3D('placement',#290,#229,#230);
#206=AXIS2_PLACEMENT_3D('',#291,#231,#232);
#207=AXIS2_PLACEMENT_3D('',#293,#233,#234);
#208=AXIS2_PLACEMENT_3D('',#296,#236,#237);
#209=AXIS2_PLACEMENT_3D('',#297,#238,#239);
#210=AXIS2_PLACEMENT_3D('',#300,#240,#241);
#211=AXIS2_PLACEMENT_3D('',#304,#243,#244);
#212=AXIS2_PLACEMENT_3D('',#308,#246,#247);
#213=AXIS2_PLACEMENT_3D('',#312,#249,#250);
#214=AXIS2_PLACEMENT_3D('',#315,#252,#253);
#215=AXIS2_PLACEMENT_3D('',#317,#255,#256);
#216=AXIS2_PLACEMENT_3D('',#319,#257,#258);
#217=AXIS2_PLACEMENT_3D('',#320,#259,#260);
#218=AXIS2_PLACEMENT_3D('',#323,#262,#263);
#219=AXIS2_PLACEMENT_3D('',#324,#264,#265);
#220=AXIS2_PLACEMENT_3D('',#327,#266,#267);
#221=AXIS2_PLACEMENT_3D('',#328,#268,#269);
#222=AXIS2_PLACEMENT_3D('',#330,#271,#272);
#223=AXIS2_PLACEMENT_3D('',#332,#273,#274);
#224=AXIS2_PLACEMENT_3D('',#334,#276,#277);
#225=AXIS2_PLACEMENT_3D('',#337,#280,#281);
#226=AXIS2_PLACEMENT_3D('',#340,#284,#285);
#227=AXIS2_PLACEMENT_3D('',#341,#286,#287);
#228=AXIS2_PLACEMENT_3D('',#342,#288,#289);
#229=DIRECTION('axis',(0.,0.,1.));
#230=DIRECTION('refdir',(1.,0.,0.));
#231=DIRECTION('center_axis',(0.,0.,1.));
#232=DIRECTION('ref_axis',(1.,0.,0.));
#233=DIRECTION('center_axis',(0.,0.,-1.));
#234=DIRECTION('ref_axis',(1.,0.,0.));
#235=DIRECTION('',(0.707106781186548,8.65956056235494E-17,-0.707106781186547));
#236=DIRECTION('center_axis',(0.,0.,1.));
#237=DIRECTION('ref_axis',(1.,0.,0.));
#238=DIRECTION('center_axis',(0.,0.,1.));
#239=DIRECTION('ref_axis',(1.,0.,0.));
#240=DIRECTION('center_axis',(0.,0.,1.));
#241=DIRECTION('ref_axis',(1.,0.,0.));
#242=DIRECTION('',(0.,0.,1.));
#243=DIRECTION('center_axis',(0.,0.,1.));
#244=DIRECTION('ref_axis',(-1.,0.,0.));
#245=DIRECTION('',(0.,0.,1.));
#246=DIRECTION('center_axis',(0.,0.,1.));
#247=DIRECTION('ref_axis',(1.,0.,0.));
#248=DIRECTION('',(0.,0.,1.));
#249=DIRECTION('center_axis',(0.,0.,1.));
#250=DIRECTION('ref_axis',(-1.,0.,0.));
#251=DIRECTION('',(0.,0.,1.));
#252=DIRECTION('center_axis',(0.,0.,1.));
#253=DIRECTION('ref_axis',(1.,0.,0.));
#254=DIRECTION('',(0.,0.,-1.));
#255=DIRECTION('center_axis',(0.,0.,1.));
#256=DIRECTION('ref_axis',(1.,0.,0.));
#257=DIRECTION('center_axis',(0.,0.,1.));
#258=DIRECTION('ref_axis',(1.,0.,0.));
#259=DIRECTION('center_axis',(0.,0.,1.));
#260=DIRECTION('ref_axis',(1.,0.,0.));
#261=DIRECTION('',(0.,0.,1.));
#262=DIRECTION('center_axis',(0.,0.,-1.));
#263=DIRECTION('ref_axis',(1.,0.,0.));
#264=DIRECTION('center_axis',(0.,0.,-1.));
#265=DIRECTION('ref_axis',(1.,0.,0.));
#266=DIRECTION('center_axis',(0.,0.,1.));
#267=DIRECTION('ref_axis',(1.,0.,0.));
#268=DIRECTION('center_axis',(0.,0.,1.));
#269=DIRECTION('ref_axis',(1.,0.,0.));
#270=DIRECTION('',(-0.866025403784438,-1.06057523872491E-16,-0.5));
#271=DIRECTION('center_axis',(0.,0.,-1.));
#272=DIRECTION('ref_axis',(-1.,0.,0.));
#273=DIRECTION('center_axis',(0.,0.,-1.));
#274=DIRECTION('ref_axis',(-1.,0.,0.));
#275=DIRECTION('',(0.,0.,-1.));
#276=DIRECTION('center_axis',(-1.,0.,0.));
#277=DIRECTION('ref_axis',(0.,-1.,0.));
#278=DIRECTION('',(0.,1.,0.));
#279=DIRECTION('',(0.,-1.,0.));
#280=DIRECTION('center_axis',(1.,0.,0.));
#281=DIRECTION('ref_axis',(0.,1.,0.));
#282=DIRECTION('',(0.,-1.,0.));
#283=DIRECTION('',(0.,1.,0.));
#284=DIRECTION('center_axis',(0.,0.,1.));
#285=DIRECTION('ref_axis',(-1.,0.,0.));
#286=DIRECTION('center_axis',(0.,0.,1.));
#287=DIRECTION('ref_axis',(1.,0.,0.));
#288=DIRECTION('center_axis',(0.,0.,1.));
#289=DIRECTION('ref_axis',(1.,0.,0.));
#290=CARTESIAN_POINT('',(0.,0.,0.));
#291=CARTESIAN_POINT('Origin',(0.,0.,0.5));
#292=CARTESIAN_POINT('',(-14.,1.71450551880629E-15,1.));
#293=CARTESIAN_POINT('Origin',(0.,0.,1.));
#294=CARTESIAN_POINT('',(-13.,-1.59204083889156E-15,0.));
#295=CARTESIAN_POINT('',(-13.5,-1.65327317884893E-15,0.5));
#296=CARTESIAN_POINT('Origin',(0.,0.,0.));
#297=CARTESIAN_POINT('Origin',(0.,0.,0.));
#298=CARTESIAN_POINT('',(-4.,13.4164078649987,5.));
#299=CARTESIAN_POINT('',(-14.,-1.71450551880629E-15,5.));
#300=CARTESIAN_POINT('Origin',(0.,0.,5.));
#301=CARTESIAN_POINT('',(-4.,13.4164078649987,5.8));
#302=CARTESIAN_POINT('',(-4.,13.4164078649987,5.));
#303=CARTESIAN_POINT('',(4.,13.4164078649987,5.8));
#304=CARTESIAN_POINT('Origin',(0.,0.,5.8));
#305=CARTESIAN_POINT('',(4.,13.4164078649987,5.));
#306=CARTESIAN_POINT('',(4.,13.4164078649987,5.));
#307=CARTESIAN_POINT('',(4.,-13.4164078649987,5.));
#308=CARTESIAN_POINT('Origin',(0.,0.,5.));
#309=CARTESIAN_POINT('',(4.,-13.4164078649987,5.8));
#310=CARTESIAN_POINT('',(4.,-13.4164078649987,5.));
#311=CARTESIAN_POINT('',(-4.,-13.4164078649987,5.8));
#312=CARTESIAN_POINT('Origin',(0.,0.,5.8));
#313=CARTESIAN_POINT('',(-4.,-13.4164078649987,5.));
#314=CARTESIAN_POINT('',(-4.,-13.4164078649987,5.));
#315=CARTESIAN_POINT('Origin',(0.,0.,5.));
#316=CARTESIAN_POINT('',(-14.,-1.71450551880629E-15,0.));
#317=CARTESIAN_POINT('Origin',(0.,0.,0.));
#318=CARTESIAN_POINT('',(-4.75,5.81707229594993E-16,0.));
#319=CARTESIAN_POINT('Origin',(0.,0.,0.));
#320=CARTESIAN_POINT('Origin',(0.,0.,0.));
#321=CARTESIAN_POINT('',(-4.75,5.81707229594993E-16,2.9986969212423));
#322=CARTESIAN_POINT('',(-4.75,-5.81707229594993E-16,0.));
#323=CARTESIAN_POINT('Origin',(0.,0.,2.9986969212423));
#324=CARTESIAN_POINT('Origin',(0.,0.,3.62));
#325=CARTESIAN_POINT('',(-2.6,-3.18408167778312E-16,4.24));
#326=CARTESIAN_POINT('',(2.6,-3.18408167778312E-16,4.24));
#327=CARTESIAN_POINT('Origin',(0.,0.,4.24));
#328=CARTESIAN_POINT('Origin',(0.,0.,4.24));
#329=CARTESIAN_POINT('',(-3.6738715006927,-4.499194973802E-16,3.62));
#330=CARTESIAN_POINT('Origin',(0.,0.,5.8));
#331=CARTESIAN_POINT('',(2.6,3.18408167778312E-16,5.8));
#332=CARTESIAN_POINT('Origin',(0.,0.,5.8));
#333=CARTESIAN_POINT('',(2.6,-3.18408167778312E-16,5.8));
#334=CARTESIAN_POINT('Origin',(-4.,13.4164078649987,5.));
#335=CARTESIAN_POINT('',(-4.,6.70820393249937,5.));
#336=CARTESIAN_POINT('',(-4.,13.4164078649987,5.8));
#337=CARTESIAN_POINT('Origin',(4.,-13.4164078649987,5.));
#338=CARTESIAN_POINT('',(4.,-6.70820393249937,5.));
#339=CARTESIAN_POINT('',(4.,-13.4164078649987,5.8));
#340=CARTESIAN_POINT('Origin',(-5.55111512312578E-16,0.,5.8));
#341=CARTESIAN_POINT('Origin',(0.,0.,5.));
#342=CARTESIAN_POINT('Origin',(0.,0.,5.));
#343=UNCERTAINTY_MEASURE_WITH_UNIT(LENGTH_MEASURE(0.01),#347,
'DISTANCE_ACCURACY_VALUE',
'Maximum model space distance between geometric entities at asserted c
onnectivities');
#344=UNCERTAINTY_MEASURE_WITH_UNIT(LENGTH_MEASURE(0.01),#347,
'DISTANCE_ACCURACY_VALUE',
'Maximum model space distance between geometric entities at asserted c
onnectivities');
#345=(
GEOMETRIC_REPRESENTATION_CONTEXT(3)
GLOBAL_UNCERTAINTY_ASSIGNED_CONTEXT((#343))
GLOBAL_UNIT_ASSIGNED_CONTEXT((#347,#349,#350))
REPRESENTATION_CONTEXT('','3D')
);
#346=(
GEOMETRIC_REPRESENTATION_CONTEXT(3)
GLOBAL_UNCERTAINTY_ASSIGNED_CONTEXT((#344))
GLOBAL_UNIT_ASSIGNED_CONTEXT((#347,#349,#350))
REPRESENTATION_CONTEXT('','3D')
);
#347=(
LENGTH_UNIT()
NAMED_UNIT(*)
SI_UNIT(.MILLI.,.METRE.)
);
#348=(
LENGTH_UNIT()
NAMED_UNIT(*)
SI_UNIT($,.METRE.)
);
#349=(
NAMED_UNIT(*)
PLANE_ANGLE_UNIT()
SI_UNIT($,.RADIAN.)
);
#350=(
NAMED_UNIT(*)
SI_UNIT($,.STERADIAN.)
SOLID_ANGLE_UNIT()
);
#351=SHAPE_DEFINITION_REPRESENTATION(#352,#353);
#352=PRODUCT_DEFINITION_SHAPE('',$,#355);
#353=SHAPE_REPRESENTATION('',(#205),#345);
#354=PRODUCT_DEFINITION_CONTEXT('part definition',#359,'design');
#355=PRODUCT_DEFINITION('Rubber Bumper Foot','Rubber Bumper Foot v2',#356,
#354);
#356=PRODUCT_DEFINITION_FORMATION('',$,#361);
#357=PRODUCT_RELATED_PRODUCT_CATEGORY('Rubber Bumper Foot v2',
'Rubber Bumper Foot v2',(#361));
#358=APPLICATION_PROTOCOL_DEFINITION('international standard',
'automotive_design',2009,#359);
#359=APPLICATION_CONTEXT(
'Core Data for Automotive Mechanical Design Process');
#360=PRODUCT_CONTEXT('part definition',#359,'mechanical');
#361=PRODUCT('Rubber Bumper Foot','Rubber Bumper Foot v2',$,(#360));
#362=PRESENTATION_STYLE_ASSIGNMENT((#363));
#363=SURFACE_STYLE_USAGE(.BOTH.,#364);
#364=SURFACE_SIDE_STYLE('',(#365));
#365=SURFACE_STYLE_FILL_AREA(#366);
#366=FILL_AREA_STYLE('Steel - Satin',(#367));
#367=FILL_AREA_STYLE_COLOUR('Steel - Satin',#368);
#368=COLOUR_RGB('Steel - Satin',0.627450980392157,0.627450980392157,0.627450980392157);
ENDSEC;
END-ISO-10303-21;
